24-04-2014 HOME | MAPA DEL SITIO
BIOGRAFIAS
  • Angus Young
  • Jimmy Page
  • Ritchie Blackmore
  • Yngwie Malmsteen
  • Todas
GUITARRAS
  • Epiphone
  • Fender
  • Gibson
  • Ibanez
  • Todas
TABLATURAS
  • AC/DC
  • Deep Purple
  • Led Zeppelin
  • Metallica
  • Todas
HERRAMIENTAS
  • Afinador
  • Acordes
  • Lutheria
EXTRAS
  • Wallpapers
Tablaturas
Soda Estereo - De Musica Ligera

Main Riff (Ritmo Principal):
----------------3--2--2-----------------------------------------------------------
----------------3--3--3---2--2--2--2----------------------------------------------
-4--4-----------0--2--2---2--2--2--2----------------------------------------------x6
-4--4-----------0--0--0---2--2--2--2----------------------------------------------
-2--2-----------2---------0--0--0--0----------------------------------------------
-------3--3--3--3-----------------------------------------------------------------

Bassline (línea de Bajo):
----------------------------------------------------------------------------------
-----------------5----------------------------------------------------------------
-2--2---------------5--5----------------------------------------------------------
-------3--3--3------------5--5--5--5----------------------------------------------

Ella durmió al Calor De las masas…
Y yo desperté queriendo soñarla
Algún tiempo atrás

-3--2--2--
-3--3--3--
-0--2--2--
-0--0--0--
-2--------
-3--------

Pensé en escribirle

-3--2--2--
-3--3--3--
-0--2--2--
-0--0--0--
-2--------
-3--------

Que Nunca sortee

-3--2--2--
-3--3--3--
-0--2--2--
-0--0--0--
-2--------
-3--------

las trampas del amor

-3--2--2------------
-3--3--3--2--2--2--2
-0--2--2--2--2--2--2
-0--0--0--2--2--2--2
-2--------0--0--0--0
-3------------------

Chorus (coro):
----------------3--2--2-----------------------------------------------------------
----------------3--3--3---2--2--2--2----------------------------------------------
-4--4-----------0--2--2---2--2--2--2----------------------------------------------
-4--4-----------0--0--0---2--2--2--2----------------------------------------------
-2--2-----------2---------0--0--0--0----------------------------------------------
-------3--3--3--3-----------------------------------------------------------------
De aquel amor             De música ligera

----------------3--2--2-----------------------------------------------------------
----------------3--3--3---2--2--2--2----------------------------------------------
-4--4-----------0--2--2---2--2--2--2----------------------------------------------
-4--4-----------0--0--0---2--2--2--2----------------------------------------------
-2--2-----------2---------0--0--0--0----------------------------------------------
-------3--3--3--3-----------------------------------------------------------------

 

----------------3--2--2-----------------------------------------------------------
----------------3--3--3---2--2--2--2----------------------------------------------
-4--4-----------0--2--2---2--2--2--2----------------------------------------------
-4--4-----------0--0--0---2--2--2--2----------------------------------------------
-2--2-----------2---------0--0--0--0----------------------------------------------
-------3--3--3--3-----------------------------------------------------------------
Nada nos libra            Nada mas queda

----------------3--2--2-----------------------------------------------------------
----------------3--3--3---2--2--2--2----------------------------------------------
-4--4-----------0--2--2---2--2--2--2----------------------------------------------
-4--4-----------0--0--0---2--2--2--2----------------------------------------------
-2--2-----------2---------0--0--0--0----------------------------------------------
-------3--3--3--3-----------------------------------------------------------------

 

Solo:
----------------------------------------------------------------------------------
----------------------------------------------------------------------------------
----------------------------------------------------------------------------------
----------------------------------------------------------------------------------
-2--2--4--5--4--5--4--2--------2---------2--0--2--0-------------------------------
-------------------------5--2-----3b--0-------------------------------------------

----------------------------------------------------------------------------------
----------------------------------------------------------------------------------
----------------------------------------------------------------------------------
-------------2--4--2-------------7------------------------------------------------
-2--2--4--5----------5--4--2--5---------------------------------------------------
----------------------------------------------------------------------------------

No le enviaré

-3--2--2--
-3--3--3--
-0--2--2--
-0--0--0--
-2--------
-3--------

Cenizas de rosas

-3--2--2--
-3--3--3--
-0--2--2--
-0--0--0--
-2--------
-3--------

No pienso evitar

-3--2--2--
-3--3--3--
-0--2--2--
-0--0--0--
-2--------
-3--------

Un roce secreto

-3--2--2------------
-3--3--3--2--2--2--2
-0--2--2--2--2--2--2
-0--0--0--2--2--2--2
-2--------0--0--0--0
-3------------------

Chorus (coro):
----------------3--2--2-----------------------------------------------------------
----------------3--3--3---2--2--2--2----------------------------------------------
-4--4-----------0--2--2---2--2--2--2----------------------------------------------
-4--4-----------0--0--0---2--2--2--2----------------------------------------------
-2--2-----------2---------0--0--0--0----------------------------------------------
-------3--3--3--3-----------------------------------------------------------------
De aquel amor             De música ligera

----------------3--2--2-----------------------------------------------------------
----------------3--3--3---2--2--2--2----------------------------------------------
-4--4-----------0--2--2---2--2--2--2----------------------------------------------
-4--4-----------0--0--0---2--2--2--2----------------------------------------------
-2--2-----------2---------0--0--0--0----------------------------------------------
-------3--3--3--3-----------------------------------------------------------------

 

----------------3--2--2-----------------------------------------------------------
----------------3--3--3---2--2--2--2----------------------------------------------
-4--4-----------0--2--2---2--2--2--2----------------------------------------------
-4--4-----------0--0--0---2--2--2--2----------------------------------------------
-2--2-----------2---------0--0--0--0----------------------------------------------
-------3--3--3--3-----------------------------------------------------------------
Nada nos libra            Nada mas queda

----------------3--2--2-----------------------------------------------------------
----------------3--3--3---2--2--2--2----------------------------------------------
-4--4-----------0--2--2---2--2--2--2----------------------------------------------
-4--4-----------0--0--0---2--2--2--2----------------------------------------------
-2--2-----------2---------0--0--0--0----------------------------------------------
-------3--3--3--3-----------------------------------------------------------------

Solo 2:

 

7--5--7--5--7--5--------------------7s12--12--10--9--10--12--10--9--7--9----------
------------------7---5---7---5--7----------------------------------------10—10s12
----------------------------------------------------------------------------------
----------------------------------------------------------------------------------
----------------------------------------------------------------------------------
----------------------------------------------------------------------------------

----------------------------------------------------------------------------------
10h12—10h12-------------10h12—10h12--------------10h12-10h12----------------------
----------- 10h12—10h12--------------10h12-10h12--------------10h12—10h12---------
----------------------------------------------------------------------------------
----------------------------------------------------------------------------------
----------------------------------------------------------------------------------

14--12--14--12--14--15--14--12--12--14--15--14--12--10--9--10--12--10--9----------
----------------------------------------------------------------------------------
----------------------------------------------------------------------------------
----------------------------------------------------------------------------------
----------------------------------------------------------------------------------
----------------------------------------------------------------------------------

5—7p5-----5--5-|----5s7—7s3—7p5------5--5-----------------------------------------
-------7-------|------------------7-----------------------------------------------
---------------|------------------------------------------------------------------
---------------|-x3---------------------------------------------------------------
---------------|------------------------------------------------------------------
---------------|------------------------------------------------------------------

Chorus (coro):
----------------3--2--2-----------------------------------------------------------
----------------3--3--3---2--2--2--2----------------------------------------------
-4--4-----------0--2--2---2--2--2--2----------------------------------------------
-4--4-----------0--0--0---2--2--2--2----------------------------------------------
-2--2-----------2---------0--0--0--0----------------------------------------------
-------3--3--3--3-----------------------------------------------------------------
De aquel amor             De música ligera

----------------3--2--2-----------------------------------------------------------
----------------3--3--3---2--2--2--2----------------------------------------------
-4--4-----------0--2--2---2--2--2--2----------------------------------------------
-4--4-----------0--0--0---2--2--2--2----------------------------------------------
-2--2-----------2---------0--0--0--0----------------------------------------------
-------3--3--3--3-----------------------------------------------------------------

 

----------------3--2--2-----------------------------------------------------------
----------------3--3--3---2--2--2--2----------------------------------------------
-4--4-----------0--2--2---2--2--2--2----------------------------------------------
-4--4-----------0--0--0---2--2--2--2----------------------------------------------
-2--2-----------2---------0--0--0--0----------------------------------------------
-------3--3--3--3-----------------------------------------------------------------
Nada nos libra            Nada mas queda

----------------3--2--2-----------------------------------------------------------
----------------3--3--3---2--2--2--2----------------------------------------------
-4--4-----------0--2--2---2--2--2--2----------------------------------------------
-4--4-----------0--0--0---2--2--2--2----------------------------------------------
-2--2-----------2---------0--0--0--0----------------------------------------------
-------3--3--3--3-----------------------------------------------------------------

Just Play fast these notes…
Solo rasgea rapidamente estas notas

Interlude:
----------------------------------------------------------------------------------
-12---------8-------3-----10------------------------------------------------------
-11---------7-------2-----9-------------------------------------------------------
----------------------------------------------------------------------------------
----------------------------------------------------------------------------------
----------------------------------------------------------------------------------

 Si        Sol      Re    La
( B )      (G)     (D)    (A)

----------------3--2--2-----------------------------------------------------------
----------------3--3--3---2--2--2--2----------------------------------------------
-4--4-----------0--2--2---2--2--2--2----------------------------------------------
-4--4-----------0--0--0---2--2--2--2----------------------------------------------x8
-2--2-----------2---------0--0--0--0----------------------------------------------
-------3--3--3--3-----------------------------------------------------------------

 

7--5--7--5--7--5--------------------7s12--12--10--9--10--12--10--9--7--9----------
------------------7---5---7---5--7----------------------------------------10—10s12
----------------------------------------------------------------------------------
----------------------------------------------------------------------------------
----------------------------------------------------------------------------------
----------------------------------------------------------------------------------

----------------------------------------------------------------------------------
10h12—10h12-------------10h12—10h12--------------10h12-10h12----------------------
------------10h12—10h12--------------10h12-10h12--------------10h12—10h12---------
----------------------------------------------------------------------------------
----------------------------------------------------------------------------------
----------------------------------------------------------------------------------

14--12--14--12--14--15--14--12--12--14--15--14--12--10--9--10--12--10--9----------
----------------------------------------------------------------------------------
----------------------------------------------------------------------------------
----------------------------------------------------------------------------------
----------------------------------------------------------------------------------
----------------------------------------------------------------------------------

Just Improvise
Solo improvisa..

And then
Y Luego

-3--2--2--
-3--3--3--
-0--2--2--
-0--0--0--
-2--------
-3--------

Fuente: http://www.guitarmasta.net/s/soda_stereo/331691.html

| Libro de visitas | Recomendar ésta página | Agregar a favoritos | Página de inicio |

Copyright © 2009 TuGuitarra.com.ar ® Todos los derechos reservados